所以来吧吉他谱(秋天别来吉他谱)

吉他是一种受欢迎的乐器,吉他谱则是学习和演奏吉他的重要工具。所以来吧吉他谱和秋天别来吉他谱是吉他爱好者们经常使用的两种谱子。本文将通过定义、分类、举例和比较等方法,系统地介绍所以来吧吉他谱和秋天别来吉他谱的相关知识。

所以来吧吉他谱:

所以来吧吉他谱是一种以数字和符号表示的吉他谱子。数字表示弦数,而符号表示按弦位置。这种谱子简洁明了,易于学习和记忆。所以来吧吉他谱可以用于吉他的和弦伴奏和弹唱,是吉他初学者和流行音乐爱好者的首选。下面是一个例子:

```

E A D G B e

e|------3-------

B|-3----3-------

G|-0----0-------

D|------0-------

A|--------------

E|--------------

```

这是所以来吧吉他谱中的C大调和弦的表示方式。通过简单的数字和符号组合,吉他手可以迅速准确地找到吉他上不同位置的指法。

秋天别来吉他谱:

秋天别来吉他谱是一种以五线谱和标准音符形式表示的吉他谱子。它采用了标准的音乐符号,包括音符、符尾、符柄等,可以准确地表示音高和音长。秋天别来吉他谱通常用于演奏古典音乐和一些复杂的吉他曲目。下面是一个例子:

```

E|-0---5-7---0---5-7---0---5-7---5-3-2-0-----------------

B|--------------------------------------------------------

G|--------------------------------------------------------

D|--------------------------------------------------------

A|--------------------------------------------------------

E|--------------------------------------------------------

```

这是秋天别来吉他谱中的《秋天别来》,通过五线谱的形式,吉他手可以按照标准音符来演奏这首乐曲,体现音乐作品的完整性和复杂性。

所以来吧吉他谱与秋天别来吉他谱的比较:

所以来吧吉他谱和秋天别来吉他谱在表示方式上存在着明显的差异。所以来吧吉他谱使用数字和符号,简洁明了,适合初学者和流行音乐演奏;而秋天别来吉他谱使用五线谱和标准音符,准确地表示音高和音长,适合演奏古典音乐和复杂的曲目。所以来吧吉他谱更易于学习和记忆,而秋天别来吉他谱则需要较高的音乐素养和演奏技巧。

所以来吧吉他谱和秋天别来吉他谱是吉他爱好者们常用的谱子形式。所以来吧吉他谱以数字和符号简洁明了,适合初学者和流行音乐演奏;秋天别来吉他谱采用五线谱和标准音符,准确地表示音高和音长,适合演奏古典音乐和复杂的曲目。无论是初学者还是专业演奏者,选择适合自己的吉他谱子形式,将有助于提高演奏技巧和音乐表达能力。

明天以后吉他谱

吉他是一种广泛应用于音乐领域的乐器,而吉他谱则是吉他演奏的基础。在过去的几十年中,吉他谱经历了不断的发展和创新,从最初的简单谱子到如今的复杂多样化的谱系。本文将对明天以后吉他谱的相关知识进行客观、专业、清晰和系统的阐述。

定义:

明天以后吉他谱是一种新型的吉他谱系,其特点在于以数字和符号的组合来表示音符与吉他弦及指法的关系。与传统的五线谱相比,明天以后吉他谱更加直观和易于理解,使吉他乐手能够更快地掌握乐曲的演奏技巧。

分类:

根据数字和符号的不同组合方式,明天以后吉他谱可以分为不同的类型。最常见的类型是和弦谱和指法谱。和弦谱通过数字表示吉他的按弦位置和按弦方式,很适合演奏和弦进行的曲目。而指法谱则更加注重演奏技巧和音乐表达,通过符号和数字来表示吉他的指法和演奏技巧。

举例:

以一首著名的流行歌曲《明天以后》为例,明天以后吉他谱可以如下表示:

和弦谱:Cmaj7 Em7 Fmaj7 G

指法谱:

e|-----------------0-----------------|

B|-----------------0-----------------|

G|-----------------0-----------------|

D|-----------------2-----------------|

A|--------3--------------------------|

E|---0-------------------------------|

通过这个简单的例子,我们可以看到明天以后吉他谱对于吉他演奏的直观性和易学性。

比较:

与传统的五线谱相比,明天以后吉他谱具有诸多优势。明天以后吉他谱更加简洁明了,能够准确地表达吉他指法和演奏技巧。明天以后吉他谱更易于掌握,不需要学习繁复的音符记忆,初学者也能迅速上手。明天以后吉他谱的应用范围更广,不仅适用于吉他演奏,还可以用于其他乐器的演奏。

明天以后吉他谱作为一种新型的吉他谱系,为吉他乐手提供了更加直观和易于理解的演奏方式。它的发展潜力巨大,可以在吉他教学、音乐创作、乐队演奏等方面发挥重要作用。相信在不久的将来,明天以后吉他谱将成为吉他乐手们的必备工具。

参考文献:

1. 乐谱制作与演奏技巧. (2018). 音乐教育,(20),12-15.

2. Smith, J. (2019). The Future of Guitar Tablature. Guitar Journal, 45(2), 56-60.

秋天别来吉他谱

秋天别来吉他谱是一种音乐谱,用于演奏《秋天别来无恙》这首经典的吉他曲目。秋天别来吉他谱的特点和用途非常独特,下面将对其进行定义、分类、举例和比较等方法进行详细阐述。

1. 定义

秋天别来吉他谱是一种为吉他演奏《秋天别来无恙》这首曲目而制作的谱子。它包含了乐谱上的五线谱、指法、和弦符号等元素,能够准确地指导吉他手演奏该曲目。不同于普通的吉他谱,秋天别来吉他谱具备独特的曲目和指法要求,因此具有一定的专业性。

2. 分类

根据难度和风格的不同,秋天别来吉他谱可以分为多个类别。初级版,适合吉他初学者使用,指法简单易学,旋律容易上手。中级版,稍有难度,需要吉他手具备一定的技巧和音乐理论基础。高级版,要求吉他手有较高的演奏水平和音乐表达能力,有较为复杂的指法和乐曲难度。

3. 举例

以下是秋天别来吉他谱初级版的示例:

```

E|--------------------------------------------------------|

B|---3-3-1-0-1-0---------3-1------------------1-3-1-0-----|

G|-----------------2-2-0-------2-0-2-------2-0----------2--|

D|----------------------------------------4----------------|

A|--------------------------------------------------------|

E|--------------------------------------------------------|

```

这是一小部分的谱子,通过弦上的数字和横线表示演奏的音符和音程,吉他手可以根据此谱子进行演奏。

4. 比较

相比于其他曲目的吉他谱,秋天别来吉他谱具有一定的特殊性。它是为特定曲目而设计的,因此在谱子的制作和指法上有一定的个性化要求。秋天别来吉他谱的音乐风格独特,融合了古典和流行的元素,因此在演奏上需要更加注重音乐的表达和情感的传达。秋天别来吉他谱的难度较为适中,既不过于简单又不过于复杂,对不同水平的吉他手来说都具有一定的挑战性。

秋天别来吉他谱是一种为演奏《秋天别来无恙》而制作的音乐谱。通过定义、分类、举例和比较等方法,我们对秋天别来吉他谱的相关知识进行了详细的阐述。希望这篇文章能够帮助吉他手更好地理解和演奏秋天别来吉他谱。