电吉他独奏谱入门,电吉他独奏谱入门教程

电吉他独奏谱作为一种重要的乐谱形式,对于学习和演奏电吉他的人来说至关重要。本文将以客观、专业、清晰和系统的方式,通过定义、分类、举例和比较等方法,阐述电吉他独奏谱入门以及相关的教程和技巧。

一、电吉他独奏谱的定义和特点

电吉他独奏谱是用来表示电吉他独奏曲目的一种谱记号系统。与传统的五线谱不同,电吉他独奏谱使用了各种特殊符号和指法标记来表示演奏技巧和效果。它可以清晰地显示音高、节奏和演奏方式,是电吉他独奏的重要指导工具。

二、电吉他独奏谱的分类

1. 标准谱

标准谱是最常用的电吉他独奏谱形式,它使用了五线谱和特殊符号来表示音符、节奏和演奏技巧。标准谱适用于各种音乐风格和难度等级的曲目,是学习和演奏电吉他的基础。

2. TAB谱

TAB谱是一种简化的电吉他独奏谱,它使用了水平线代替五线谱,并在每根琴弦上标示数字来表示音高。TAB谱适合初学者和对标准谱不熟悉的人,它直观地显示了指法和弹奏位置。

三、电吉他独奏谱的基本元素

1. 音符与节奏

电吉他独奏谱中的音符通过不同形状的符号来表示音高和音长。节奏通过各种时间符号和连线来表示,演奏者可以根据谱面上的节奏指示来准确地演奏。

2. 指法和和弦

电吉他独奏谱中的指法和和弦标记是演奏电吉他时不可或缺的要素。指法标记告诉演奏者应该在哪个位置按弦,而和弦标记则告诉演奏者应该按下哪些琴弦。

四、电吉他独奏谱的学习方法和技巧

1. 练习音阶和琴指

学习电吉他独奏谱前,先掌握音阶和琴指是非常重要的。音阶练习可以帮助培养弹奏技巧和手指灵活度,而琴指练习则可以提高指法准确性和速度。

2. 系统学习曲目

选择适合自己水平的曲目进行系统学习是学习电吉他独奏谱的关键。从简单的曲目开始,逐渐提高难度,不断挑战自己的技术和演奏能力。

通过对电吉他独奏谱入门和相关教程的阐述,我们了解了电吉他独奏谱的定义、分类、基本元素以及学习方法和技巧。掌握电吉他独奏谱对于提高电吉他演奏水平和表达音乐情感是至关重要的,希望本文能对想要学习电吉他独奏的人提供一些帮助和指导。

电吉他独奏谱入门教学

电吉他独奏谱是指用标准音符记谱方式来表达电吉他独奏曲目的乐谱。学习电吉他独奏谱对于初学者来说可能会有一定的难度,但通过系统的学习和练习,初学者也能够掌握基本的技巧和理论知识。本文将以客观、专业、清晰和系统的方式,通过定义、分类、举例和比较等方法阐述电吉他独奏谱入门教学的相关知识。

一、电吉他独奏谱的定义及特点

电吉他独奏谱是一种用标准音符记谱方式来表达电吉他独奏曲目的乐谱。它不同于传统的吉他谱,因为电吉他独奏需要考虑到音色、效果器的应用以及手指技巧等因素。电吉他独奏谱在音符记谱的基础上还会添加指法、效果器设置和特殊技巧等信息,以帮助演奏者准确地表达出乐曲的风格和情感。

举例:

下面是一段电吉他独奏谱的示例:

```

e|------------------------------------------------------|

B|------------------------------------------------------|

G|------------------------------------------------------|

D|------------------------------------------------------|

A|-------5---7--5-----5-----5--7--5---------------------|

E|---5--------------------------7-----------------------|

```

二、电吉他独奏谱的分类

电吉他独奏谱可以根据难度、曲风、技巧要求等进行分类。按照难度来分类,可以分为初级、中级和高级谱;按照曲风来分类,可以分为摇滚、布鲁斯、爵士等不同风格的谱;按照技巧要求来分类,可以分为扫弦、颤音、滑音等不同的技巧类别。

举例:

1. 初级电吉他独奏谱示例:

```

e|------------------------------------------------------|

B|------------------------------------------------------|

G|------------------------------------------------------|

D|----2---2h3p2-----2----------------------------------|

A|--3---3---------3---3--------------------------------|

E|------------------------------------------------------|

```

2. 中级电吉他独奏谱示例:

```

e|------------------------------------------------------|

B|------12--12b--\10-------10--8------------------------|

G|--9-----------------9-----------9--7--9--7------------|

D|------------------------------------------------------|

A|------------------------------------------------------|

E|------------------------------------------------------|

```

三、电吉他独奏谱的学习方法

学习电吉他独奏谱需要掌握一定的基础知识和技巧。学习者需要了解音符的表示方法以及吉他指法的基本知识。学习者需要逐步学习各种不同的技巧和效果器的应用,例如扫弦、滑音、颤音、和弦分解等。学习者还需要注重实践和练习,通过不断练习熟练掌握各种技巧和乐曲。

比较:

与传统吉他谱相比,学习电吉他独奏谱需要更多的音乐理论知识和技巧。电吉他独奏谱还需要考虑到音色和效果器的使用,以及特殊的技巧要求。初学者在学习电吉他独奏谱时需要花费更多的时间和精力。

电吉他独奏谱入门教学是一项需要系统学习和练习的任务。通过本文所提供的定义、分类、举例和比较等方法,初学者能够全面了解电吉他独奏谱的基本知识和学习方法。希望本文能够对初学者在学习电吉他独奏谱方面提供一定的帮助。

(总字数:625字)

电吉他独奏谱入门教程

电吉他独奏谱是指通过电吉他演奏出的一段独奏音乐,是电吉他爱好者追求的技巧之一。本教程将以客观、专业、清晰和系统的方式介绍电吉他独奏谱的入门知识,包括定义、分类、举例和比较等方面,帮助初学者快速入门。

一、电吉他独奏谱的定义和作用

电吉他独奏谱是一种特定的音乐谱,用于指导演奏者在电吉他上进行独奏表演。与其他类型的吉他谱不同,电吉他独奏谱更注重表现力和技巧的展示。通过演奏独奏谱,演奏者可以发挥自己的想象力和创造力,展示个人风格和技艺。

举例:

著名的电吉他独奏谱《Eruption》由埃迪·范·海伦演奏,展示了他惊人的速度和精湛的技巧。而另一首《November Rain》则展现了斯拉什的深情和表现力。这些独奏谱成为了电吉他爱好者追求的目标,也激发了他们对于音乐的热情。

二、电吉他独奏谱的分类

根据难度和风格的不同,电吉他独奏谱可以分为多个分类。初学者可以从简单易懂的入门曲目开始,逐渐提高难度。

1. 经典曲目:这类独奏谱通常是指那些具有代表性的经典音乐作品,如《Canon in D》和《Fur Elise》等。这些曲目既可以帮助初学者熟悉吉他演奏的基本技巧,同时也能培养他们对音乐的理解和感受能力。

2. 流行曲目:这类独奏谱则是指那些流行音乐中的吉他独奏部分,如《Hotel California》和《Stairway to Heaven》等。这些曲目通常具有较高的技巧要求,既需要演奏者具备良好的技巧,又需要他们能够准确地表达音乐中的情感。

3. 进阶曲目:这类独奏谱则是指那些具有较高技巧要求的曲目,如《Technical Difficulties》和《Cliffs of Dover》等。这些曲目要求演奏者具备出色的手指运动和速度控制能力,以及对音乐理论的深入掌握。

三、电吉他独奏谱的学习方法

对于初学者而言,学习电吉他独奏谱需要掌握一定的基本技巧和音乐理论知识。

1. 基础技巧练习:包括手指运动、音符的准确演奏、弹奏技巧等。这些技巧可以通过反复练习和模仿榜样演奏者的录音来提高。

2. 音乐理论学习:了解音阶、和弦和节奏等基本概念,以及如何在独奏谱中应用这些概念。这可以帮助演奏者更好地理解和演绎独奏谱。

3. 监听和模仿:通过听取并模仿榜样演奏者的音乐录音,学习他们的演奏风格和技巧。这有助于提高演奏者的音乐表达能力和技巧。

电吉他独奏谱作为电吉他爱好者追求的一项技巧,具有重要的学习意义和实践价值。通过本文的介绍,我们了解了电吉他独奏谱的定义、作用、分类以及学习方法。希望这篇入门教程能够帮助初学者快速入门,并在未来的学习中不断提高和发展。祝愿各位初学者在电吉他独奏谱的世界中获得更多的乐趣和成就。